Перейти к содержанию
Муромский форум
Авторизация  
Yurich

Игра На Гитаре

Рекомендуемые сообщения

Я вот щас сам учусь потихоньку, попутно хожу в Орленок заниматься по воскресеньям. Хотя я такой человек, который продуктивнее учится самостоятельно, чем под чьим то руководством.

Изменено пользователем Ведьмак

Поделиться сообщением


Ссылка на сообщение
Поделиться на другие сайты

А может кто-нибудь выложить аккорды песен группы Ландыши для песен "Парень из литейного" и "Случий на свидании" ... и если можно еще группы Дистемпер на песню "Блеск в глазах", там еще в припеве поется:" ... пролетают дни не вернешь назад, под дождем промок самолет бумажный, лиш бы не пропал блеск у вас в глазах, знаю ничего в мире нет прекрасней ... "

Поделиться сообщением


Ссылка на сообщение
Поделиться на другие сайты

народ привеД подскажите пожалуйсто бой к песни "Никто ниуслышит" группы чайф smile.gif

Поделиться сообщением


Ссылка на сообщение
Поделиться на другие сайты

Впринципе вот так:
[attachment=25724:Chaif___Oi_o__2_.zip]
но если сложно то после басовой струны, можно 3 раза провести по нижним, вместо перебора.

Поделиться сообщением


Ссылка на сообщение
Поделиться на другие сайты
Цитата(ZIKURID @ 20.12.2008, 19:44)
Скаллопирование на гитаре???


Извените, а что сие значит ? smile.gif

Поделиться сообщением


Ссылка на сообщение
Поделиться на другие сайты
Цитата(DANTE @ 21.12.2008, 7:42)
Извените, а что сие значит ? smile.gif

Это письменно не обьясниш))))погляди у ингви мальмстина на лады

Поделиться сообщением


Ссылка на сообщение
Поделиться на другие сайты

Доброго ...
Трудно сказать - что к чему!
Тут нужно талант иметь.
Вот вам для примера:

2 года братишка учился.
Лишь бы дибила Капустина не было за звуком. ohmy.gif

Поделиться сообщением


Ссылка на сообщение
Поделиться на другие сайты

Накануне праздников предлагаю поделится друг с другом аккордами новогодних песен=)

Поделиться сообщением


Ссылка на сообщение
Поделиться на другие сайты

Плюс адын за идею. Подкиньте у кого что есть! wink.gif

Поделиться сообщением


Ссылка на сообщение
Поделиться на другие сайты

мери крисмас и джинга белс


в лесу родилась ёлочка

E|------------|---5-----5----|---3----5----|--------------|
B|-------1----|--------------|-------------|---6----------|
G|------------|--------------|-------------|--------5-----|
D|------------|--------------|-------------|--------------|
A|------------|--------------|-------------|--------------|
E|------------|--------------|-------------|--------------|




-------------|--5-----5----|--6----3----|--8--------|
-------------|-------------|------------|-----------|
---5----5----|-------------|------------|-----------|
-------------|-------------|------------|-----------|
-------------|-------------|------------|-----------|
-------------|-------------|------------|-----------|


-------8----|-------------|---6----6----|---5----3----|
------------|-------------|-------------|-------------|
------------|--7-----7----|-------------|-------------|
------------|-------------|-------------|-------------|
------------|-------------|-------------|-------------|
------------|-------------|-------------|-------------|



--1----1----|--5-----5----|---3----5----|-----------|
------------|-------------|-------------|---6-------|
------------|-------------|-------------|-----------|
------------|-------------|-------------|-----------|
------------|-------------|-------------|-----------|
------------|-------------|-------------|-----------|




-------8----|-------------|---6----6----|---5----3----|
------------|-------------|-------------|-------------|
------------|--7-----7----|-------------|-------------|
------------|-------------|-------------|-------------|
------------|-------------|-------------|-------------|
------------|-------------|-------------|-------------|




--1----1----|--5-----5----|---3----5----|-----------|
------------|-------------|-------------|---6-------|
------------|-------------|-------------|-----------|
------------|-------------|-------------|-----------|
------------|-------------|-------------|-----------|
------------|-------------|-------------|-----------|

Поделиться сообщением


Ссылка на сообщение
Поделиться на другие сайты

народ подскажите какой из этих соляков Metallica - Master of puppets больше похож на оригинал, начиная с 13 такта

Поделиться сообщением


Ссылка на сообщение
Поделиться на другие сайты
Цитата(ZIKURID @ 25.12.2008, 20:49)
народ подскажите какой из этих соляков Metallica - Master of puppets больше похож на оригинал, начиная с 13 такта

2222 похож, а лучше вообще на слух подбирай в табах часто не правильно пишут

Поделиться сообщением


Ссылка на сообщение
Поделиться на другие сайты

Ребят если есть бассисты могу дать упражнния на слеп и басовые соляки если каму надо то пишите))

Поделиться сообщением


Ссылка на сообщение
Поделиться на другие сайты

Дико извиняюсь!
Не прикрепил в прошлый раз обазец :0)
В конце есть немного лажи, но зато полное живьё :0)

Вот вам предел, кторый нужно преодолеть.


1. Последнее сочинение
http://fifo.izmuroma.ru/downloads.html?file=102836
Пароль: V8J


2. На конкурс "Многоликая гитара" (г. Москва)
http://fifo.izmuroma.ru/downloads.html?file=102837
Пароль: RCZ

Поделиться сообщением


Ссылка на сообщение
Поделиться на другие сайты
Цитата(Paralaks @ 9.1.2009, 19:01)
Дико извиняюсь!
Не прикрепил в прошлый раз обазец :0)
В конце есть немного лажи, но зато полное живьё :0)

Вот вам предел, кторый нужно преодолеть.


1. Последнее сочинение
http://fifo.izmuroma.ru/downloads.html?file=102836
Пароль: V8J


2. На конкурс "Многоликая гитара" (г. Москва)
http://fifo.izmuroma.ru/downloads.html?file=102837
Пароль: RCZ

как всегда куча свипа и вибрато,классно! Изменено пользователем BooRzIk

Поделиться сообщением


Ссылка на сообщение
Поделиться на другие сайты

Афигеть, до сих пор нахожусь в небольшом шоке, mp3 запись всех больше понравилась smile.gif прям Ингви O_o

Поделиться сообщением


Ссылка на сообщение
Поделиться на другие сайты

Продам гитару Branded + комбик invasion(20вт) + тюнер босс - всему около 2х месяцев 9т.р(кто заинтересован в личку)

Поделиться сообщением


Ссылка на сообщение
Поделиться на другие сайты
Цитата(DANTE @ 10.1.2009, 6:53)
Афигеть, до сих пор нахожусь в небольшом шоке, mp3 запись всех больше понравилась smile.gif прям Ингви O_o

во в муроме таланты да? классно вобще

Поделиться сообщением


Ссылка на сообщение
Поделиться на другие сайты
Цитата(BooRzIk @ 10.1.2009, 13:07)
во в муроме таланты да? классно вобще


даже не талант, а Талантищеее, просим продолжения smile.gif

Поделиться сообщением


Ссылка на сообщение
Поделиться на другие сайты

не в курсе в муроме,есть ли школа какая нибудь или что-то подбное где расскажут про азы бренчания на гитаре, если есть то какова длительность и стоимость обуч. ?

Изменено пользователем rat

Поделиться сообщением


Ссылка на сообщение
Поделиться на другие сайты
Цитата(rat @ 18.1.2009, 19:24)
не в курсе в муроме,есть ли школа какая нибудь или что-то подбное где расскажут про азы бренчания на гитаре, если есть то какова длительность и стоимость обуч. ?

Обратись в музыуальную школу.

Поделиться сообщением


Ссылка на сообщение
Поделиться на другие сайты

Пожалуйста, войдите, чтобы комментировать

Вы сможете оставить комментарий после входа в



Войти
Авторизация  

  • Последние посетители

    Ни одного зарегистрированного пользователя не просматривает данную страницу

×